ISO-10303-21;
HEADER;
/* Generated by software containing ST-Developer
 * from STEP Tools, Inc. (www.steptools.com) 
 */

FILE_DESCRIPTION(
/* description */ ('Kolbenstange'),
/* implementation_level */ '2;1');

FILE_NAME(
/* name */ 
'O:\\Gasfedershop\\CAD\\CAD GF-Shop Stahl+VA\\Gasfedern_stp\\Gasfedern
_stp\\Gaszugfeder 6-19 Hub 150.stp',
/* time_stamp */ '2018-11-13T14:45:20+01:00',
/* author */ ('dlamberti'),
/* organization */ (''),
/* preprocessor_version */ 'ST-DEVELOPER v16.1',
/* originating_system */ 'Autodesk Inventor 2016',
/* authorisation */ '');

FILE_SCHEMA (('AUTOMOTIVE_DESIGN { 1 0 10303 214 3 1 1 }'));
ENDSEC;

DATA;
#10=MECHANICAL_DESIGN_GEOMETRIC_PRESENTATION_REPRESENTATION('',(#29,#30,
#31,#32,#33,#34,#35),#477);
#11=ITEM_DEFINED_TRANSFORMATION($,$,#257,#302);
#12=ITEM_DEFINED_TRANSFORMATION($,$,#279,#303);
#13=ITEM_DEFINED_TRANSFORMATION($,$,#293,#304);
#14=(
REPRESENTATION_RELATIONSHIP($,$,#495,#498)
REPRESENTATION_RELATIONSHIP_WITH_TRANSFORMATION(#11)
SHAPE_REPRESENTATION_RELATIONSHIP()
);
#15=(
REPRESENTATION_RELATIONSHIP($,$,#496,#498)
REPRESENTATION_RELATIONSHIP_WITH_TRANSFORMATION(#12)
SHAPE_REPRESENTATION_RELATIONSHIP()
);
#16=(
REPRESENTATION_RELATIONSHIP($,$,#497,#498)
REPRESENTATION_RELATIONSHIP_WITH_TRANSFORMATION(#13)
SHAPE_REPRESENTATION_RELATIONSHIP()
);
#17=CONTEXT_DEPENDENT_SHAPE_REPRESENTATION(#14,#492);
#18=CONTEXT_DEPENDENT_SHAPE_REPRESENTATION(#15,#493);
#19=CONTEXT_DEPENDENT_SHAPE_REPRESENTATION(#16,#494);
#20=NEXT_ASSEMBLY_USAGE_OCCURRENCE('ENG-007192:1','ENG-007192:1',
'ENG-007192:1',#503,#500,'ENG-007192:1');
#21=NEXT_ASSEMBLY_USAGE_OCCURRENCE('ENG-002667:1','ENG-002667:1',
'ENG-002667:1',#503,#501,'ENG-002667:1');
#22=NEXT_ASSEMBLY_USAGE_OCCURRENCE('GEW_-S-000005:1','GEW_-S-000005:1',
'GEW_-S-000005:1',#503,#502,'GEW_-S-000005:1');
#23=SHAPE_REPRESENTATION_RELATIONSHIP('SRR','None',#495,#26);
#24=SHAPE_REPRESENTATION_RELATIONSHIP('SRR','None',#496,#27);
#25=SHAPE_REPRESENTATION_RELATIONSHIP('SRR','None',#497,#28);
#26=ADVANCED_BREP_SHAPE_REPRESENTATION('',(#36),#473);
#27=ADVANCED_BREP_SHAPE_REPRESENTATION('',(#37),#474);
#28=ADVANCED_BREP_SHAPE_REPRESENTATION('',(#38),#475);
#29=STYLED_ITEM('',(#519),#36);
#30=STYLED_ITEM('',(#521),#37);
#31=STYLED_ITEM('',(#520),#250);
#32=STYLED_ITEM('',(#520),#251);
#33=STYLED_ITEM('',(#520),#252);
#34=STYLED_ITEM('',(#520),#253);
#35=STYLED_ITEM('',(#520),#38);
#36=MANIFOLD_SOLID_BREP('Volumenk\X\F6rper1',#254);
#37=MANIFOLD_SOLID_BREP('Volumenk\X\F6rper1',#255);
#38=MANIFOLD_SOLID_BREP('Volumenk\X\F6rper1',#256);
#39=CONICAL_SURFACE('',#270,2.3,28.0724869358533);
#40=CONICAL_SURFACE('',#276,3.75,45.);
#41=CONICAL_SURFACE('',#294,2.25,45.0000000000001);
#42=PLANE('',#263);
#43=PLANE('',#267);
#44=PLANE('',#268);
#45=PLANE('',#274);
#46=PLANE('',#280);
#47=PLANE('',#292);
#48=PLANE('',#299);
#49=PLANE('',#300);
#50=CYLINDRICAL_SURFACE('',#261,4.);
#51=CYLINDRICAL_SURFACE('',#265,3.00000000000001);
#52=CYLINDRICAL_SURFACE('',#272,2.5);
#53=CYLINDRICAL_SURFACE('',#278,4.);
#54=CYLINDRICAL_SURFACE('',#282,9.49999999999995);
#55=CYLINDRICAL_SURFACE('',#286,9.49999999999995);
#56=CYLINDRICAL_SURFACE('',#290,9.49999999999999);
#57=CYLINDRICAL_SURFACE('',#297,2.5);
#58=FACE_BOUND('',#97,.T.);
#59=FACE_BOUND('',#99,.T.);
#60=FACE_BOUND('',#101,.T.);
#61=FACE_BOUND('',#103,.T.);
#62=FACE_BOUND('',#107,.T.);
#63=FACE_BOUND('',#109,.T.);
#64=FACE_BOUND('',#111,.T.);
#65=FACE_BOUND('',#113,.T.);
#66=FACE_BOUND('',#115,.T.);
#67=FACE_BOUND('',#118,.T.);
#68=FACE_BOUND('',#120,.T.);
#69=FACE_BOUND('',#122,.T.);
#70=FACE_BOUND('',#124,.T.);
#71=FACE_BOUND('',#126,.T.);
#72=FACE_BOUND('',#129,.T.);
#73=FACE_BOUND('',#131,.T.);
#74=FACE_OUTER_BOUND('',#96,.T.);
#75=FACE_OUTER_BOUND('',#98,.T.);
#76=FACE_OUTER_BOUND('',#100,.T.);
#77=FACE_OUTER_BOUND('',#102,.T.);
#78=FACE_OUTER_BOUND('',#104,.T.);
#79=FACE_OUTER_BOUND('',#105,.T.);
#80=FACE_OUTER_BOUND('',#106,.T.);
#81=FACE_OUTER_BOUND('',#108,.T.);
#82=FACE_OUTER_BOUND('',#110,.T.);
#83=FACE_OUTER_BOUND('',#112,.T.);
#84=FACE_OUTER_BOUND('',#114,.T.);
#85=FACE_OUTER_BOUND('',#116,.T.);
#86=FACE_OUTER_BOUND('',#117,.T.);
#87=FACE_OUTER_BOUND('',#119,.T.);
#88=FACE_OUTER_BOUND('',#121,.T.);
#89=FACE_OUTER_BOUND('',#123,.T.);
#90=FACE_OUTER_BOUND('',#125,.T.);
#91=FACE_OUTER_BOUND('',#127,.T.);
#92=FACE_OUTER_BOUND('',#128,.T.);
#93=FACE_OUTER_BOUND('',#130,.T.);
#94=FACE_OUTER_BOUND('',#132,.T.);
#95=FACE_OUTER_BOUND('',#133,.T.);
#96=EDGE_LOOP('',(#191));
#97=EDGE_LOOP('',(#192));
#98=EDGE_LOOP('',(#193));
#99=EDGE_LOOP('',(#194));
#100=EDGE_LOOP('',(#195));
#101=EDGE_LOOP('',(#196));
#102=EDGE_LOOP('',(#197));
#103=EDGE_LOOP('',(#198));
#104=EDGE_LOOP('',(#199));
#105=EDGE_LOOP('',(#200));
#106=EDGE_LOOP('',(#201));
#107=EDGE_LOOP('',(#202));
#108=EDGE_LOOP('',(#203));
#109=EDGE_LOOP('',(#204));
#110=EDGE_LOOP('',(#205));
#111=EDGE_LOOP('',(#206));
#112=EDGE_LOOP('',(#207));
#113=EDGE_LOOP('',(#208));
#114=EDGE_LOOP('',(#209));
#115=EDGE_LOOP('',(#210));
#116=EDGE_LOOP('',(#211));
#117=EDGE_LOOP('',(#212));
#118=EDGE_LOOP('',(#213));
#119=EDGE_LOOP('',(#214));
#120=EDGE_LOOP('',(#215));
#121=EDGE_LOOP('',(#216));
#122=EDGE_LOOP('',(#217));
#123=EDGE_LOOP('',(#218));
#124=EDGE_LOOP('',(#219));
#125=EDGE_LOOP('',(#220));
#126=EDGE_LOOP('',(#221));
#127=EDGE_LOOP('',(#222));
#128=EDGE_LOOP('',(#223));
#129=EDGE_LOOP('',(#224));
#130=EDGE_LOOP('',(#225));
#131=EDGE_LOOP('',(#226));
#132=EDGE_LOOP('',(#227));
#133=EDGE_LOOP('',(#228));
#134=CIRCLE('',#259,4.);
#135=CIRCLE('',#260,4.);
#136=CIRCLE('',#262,4.);
#137=CIRCLE('',#264,3.);
#138=CIRCLE('',#266,3.00000000000002);
#139=CIRCLE('',#269,2.09999999999999);
#140=CIRCLE('',#271,2.5);
#141=CIRCLE('',#273,2.5);
#142=CIRCLE('',#275,3.5);
#143=CIRCLE('',#277,4.);
#144=CIRCLE('',#281,9.49999999999995);
#145=CIRCLE('',#283,9.49999999999995);
#146=CIRCLE('',#285,9.49999999999993);
#147=CIRCLE('',#287,9.49999999999996);
#148=CIRCLE('',#289,9.49999999999999);
#149=CIRCLE('',#291,9.5);
#150=CIRCLE('',#295,2.5);
#151=CIRCLE('',#296,2.);
#152=CIRCLE('',#298,2.5);
#153=VERTEX_POINT('',#403);
#154=VERTEX_POINT('',#405);
#155=VERTEX_POINT('',#408);
#156=VERTEX_POINT('',#411);
#157=VERTEX_POINT('',#414);
#158=VERTEX_POINT('',#418);
#159=VERTEX_POINT('',#421);
#160=VERTEX_POINT('',#424);
#161=VERTEX_POINT('',#427);
#162=VERTEX_POINT('',#430);
#163=VERTEX_POINT('',#435);
#164=VERTEX_POINT('',#438);
#165=VERTEX_POINT('',#441);
#166=VERTEX_POINT('',#444);
#167=VERTEX_POINT('',#447);
#168=VERTEX_POINT('',#450);
#169=VERTEX_POINT('',#455);
#170=VERTEX_POINT('',#457);
#171=VERTEX_POINT('',#460);
#172=EDGE_CURVE('',#153,#153,#134,.T.);
#173=EDGE_CURVE('',#154,#154,#135,.T.);
#174=EDGE_CURVE('',#155,#155,#136,.T.);
#175=EDGE_CURVE('',#156,#156,#137,.T.);
#176=EDGE_CURVE('',#157,#157,#138,.T.);
#177=EDGE_CURVE('',#158,#158,#139,.T.);
#178=EDGE_CURVE('',#159,#159,#140,.T.);
#179=EDGE_CURVE('',#160,#160,#141,.T.);
#180=EDGE_CURVE('',#161,#161,#142,.T.);
#181=EDGE_CURVE('',#162,#162,#143,.T.);
#182=EDGE_CURVE('',#163,#163,#144,.T.);
#183=EDGE_CURVE('',#164,#164,#145,.T.);
#184=EDGE_CURVE('',#165,#165,#146,.T.);
#185=EDGE_CURVE('',#166,#166,#147,.T.);
#186=EDGE_CURVE('',#167,#167,#148,.T.);
#187=EDGE_CURVE('',#168,#168,#149,.T.);
#188=EDGE_CURVE('',#169,#169,#150,.T.);
#189=EDGE_CURVE('',#170,#170,#151,.T.);
#190=EDGE_CURVE('',#171,#171,#152,.T.);
#191=ORIENTED_EDGE('',*,*,#172,.F.);
#192=ORIENTED_EDGE('',*,*,#173,.T.);
#193=ORIENTED_EDGE('',*,*,#174,.F.);
#194=ORIENTED_EDGE('',*,*,#172,.T.);
#195=ORIENTED_EDGE('',*,*,#174,.T.);
#196=ORIENTED_EDGE('',*,*,#175,.F.);
#197=ORIENTED_EDGE('',*,*,#176,.F.);
#198=ORIENTED_EDGE('',*,*,#175,.T.);
#199=ORIENTED_EDGE('',*,*,#176,.T.);
#200=ORIENTED_EDGE('',*,*,#177,.F.);
#201=ORIENTED_EDGE('',*,*,#178,.F.);
#202=ORIENTED_EDGE('',*,*,#177,.T.);
#203=ORIENTED_EDGE('',*,*,#179,.F.);
#204=ORIENTED_EDGE('',*,*,#178,.T.);
#205=ORIENTED_EDGE('',*,*,#180,.F.);
#206=ORIENTED_EDGE('',*,*,#179,.T.);
#207=ORIENTED_EDGE('',*,*,#181,.F.);
#208=ORIENTED_EDGE('',*,*,#180,.T.);
#209=ORIENTED_EDGE('',*,*,#173,.F.);
#210=ORIENTED_EDGE('',*,*,#181,.T.);
#211=ORIENTED_EDGE('',*,*,#182,.F.);
#212=ORIENTED_EDGE('',*,*,#183,.F.);
#213=ORIENTED_EDGE('',*,*,#182,.T.);
#214=ORIENTED_EDGE('',*,*,#184,.F.);
#215=ORIENTED_EDGE('',*,*,#183,.T.);
#216=ORIENTED_EDGE('',*,*,#185,.F.);
#217=ORIENTED_EDGE('',*,*,#184,.T.);
#218=ORIENTED_EDGE('',*,*,#186,.F.);
#219=ORIENTED_EDGE('',*,*,#185,.T.);
#220=ORIENTED_EDGE('',*,*,#187,.F.);
#221=ORIENTED_EDGE('',*,*,#186,.T.);
#222=ORIENTED_EDGE('',*,*,#187,.T.);
#223=ORIENTED_EDGE('',*,*,#188,.T.);
#224=ORIENTED_EDGE('',*,*,#189,.T.);
#225=ORIENTED_EDGE('',*,*,#190,.T.);
#226=ORIENTED_EDGE('',*,*,#188,.F.);
#227=ORIENTED_EDGE('',*,*,#189,.F.);
#228=ORIENTED_EDGE('',*,*,#190,.F.);
#229=TOROIDAL_SURFACE('',#258,4.29212282601779,0.804882442025305);
#230=TOROIDAL_SURFACE('',#284,9.77243166910079,1.03644537450318);
#231=TOROIDAL_SURFACE('',#288,9.77243166910085,1.03644537450318);
#232=ADVANCED_FACE('',(#74,#58),#229,.F.);
#233=ADVANCED_FACE('',(#75,#59),#50,.T.);
#234=ADVANCED_FACE('',(#76,#60),#42,.T.);
#235=ADVANCED_FACE('',(#77,#61),#51,.T.);
#236=ADVANCED_FACE('',(#78),#43,.T.);
#237=ADVANCED_FACE('',(#79),#44,.T.);
#238=ADVANCED_FACE('',(#80,#62),#39,.T.);
#239=ADVANCED_FACE('',(#81,#63),#52,.T.);
#240=ADVANCED_FACE('',(#82,#64),#45,.T.);
#241=ADVANCED_FACE('',(#83,#65),#40,.T.);
#242=ADVANCED_FACE('',(#84,#66),#53,.T.);
#243=ADVANCED_FACE('',(#85),#46,.T.);
#244=ADVANCED_FACE('',(#86,#67),#54,.T.);
#245=ADVANCED_FACE('',(#87,#68),#230,.F.);
#246=ADVANCED_FACE('',(#88,#69),#55,.T.);
#247=ADVANCED_FACE('',(#89,#70),#231,.F.);
#248=ADVANCED_FACE('',(#90,#71),#56,.T.);
#249=ADVANCED_FACE('',(#91),#47,.T.);
#250=ADVANCED_FACE('',(#92,#72),#41,.T.);
#251=ADVANCED_FACE('',(#93,#73),#57,.T.);
#252=ADVANCED_FACE('',(#94),#48,.T.);
#253=ADVANCED_FACE('',(#95),#49,.T.);
#254=CLOSED_SHELL('',(#232,#233,#234,#235,#236,#237,#238,#239,#240,#241,
#242));
#255=CLOSED_SHELL('',(#243,#244,#245,#246,#247,#248,#249));
#256=CLOSED_SHELL('',(#250,#251,#252,#253));
#257=AXIS2_PLACEMENT_3D('placement',#401,#305,#306);
#258=AXIS2_PLACEMENT_3D('',#402,#307,#308);
#259=AXIS2_PLACEMENT_3D('',#404,#309,#310);
#260=AXIS2_PLACEMENT_3D('',#406,#311,#312);
#261=AXIS2_PLACEMENT_3D('',#407,#313,#314);
#262=AXIS2_PLACEMENT_3D('',#409,#315,#316);
#263=AXIS2_PLACEMENT_3D('',#410,#317,#318);
#264=AXIS2_PLACEMENT_3D('',#412,#319,#320);
#265=AXIS2_PLACEMENT_3D('',#413,#321,#322);
#266=AXIS2_PLACEMENT_3D('',#415,#323,#324);
#267=AXIS2_PLACEMENT_3D('',#416,#325,#326);
#268=AXIS2_PLACEMENT_3D('',#417,#327,#328);
#269=AXIS2_PLACEMENT_3D('',#419,#329,#330);
#270=AXIS2_PLACEMENT_3D('',#420,#331,#332);
#271=AXIS2_PLACEMENT_3D('',#422,#333,#334);
#272=AXIS2_PLACEMENT_3D('',#423,#335,#336);
#273=AXIS2_PLACEMENT_3D('',#425,#337,#338);
#274=AXIS2_PLACEMENT_3D('',#426,#339,#340);
#275=AXIS2_PLACEMENT_3D('',#428,#341,#342);
#276=AXIS2_PLACEMENT_3D('',#429,#343,#344);
#277=AXIS2_PLACEMENT_3D('',#431,#345,#346);
#278=AXIS2_PLACEMENT_3D('',#432,#347,#348);
#279=AXIS2_PLACEMENT_3D('placement',#433,#349,#350);
#280=AXIS2_PLACEMENT_3D('',#434,#351,#352);
#281=AXIS2_PLACEMENT_3D('',#436,#353,#354);
#282=AXIS2_PLACEMENT_3D('',#437,#355,#356);
#283=AXIS2_PLACEMENT_3D('',#439,#357,#358);
#284=AXIS2_PLACEMENT_3D('',#440,#359,#360);
#285=AXIS2_PLACEMENT_3D('',#442,#361,#362);
#286=AXIS2_PLACEMENT_3D('',#443,#363,#364);
#287=AXIS2_PLACEMENT_3D('',#445,#365,#366);
#288=AXIS2_PLACEMENT_3D('',#446,#367,#368);
#289=AXIS2_PLACEMENT_3D('',#448,#369,#370);
#290=AXIS2_PLACEMENT_3D('',#449,#371,#372);
#291=AXIS2_PLACEMENT_3D('',#451,#373,#374);
#292=AXIS2_PLACEMENT_3D('',#452,#375,#376);
#293=AXIS2_PLACEMENT_3D('placement',#453,#377,#378);
#294=AXIS2_PLACEMENT_3D('',#454,#379,#380);
#295=AXIS2_PLACEMENT_3D('',#456,#381,#382);
#296=AXIS2_PLACEMENT_3D('',#458,#383,#384);
#297=AXIS2_PLACEMENT_3D('',#459,#385,#386);
#298=AXIS2_PLACEMENT_3D('',#461,#387,#388);
#299=AXIS2_PLACEMENT_3D('',#462,#389,#390);
#300=AXIS2_PLACEMENT_3D('',#463,#391,#392);
#301=AXIS2_PLACEMENT_3D('placement',#464,#393,#394);
#302=AXIS2_PLACEMENT_3D('',#465,#395,#396);
#303=AXIS2_PLACEMENT_3D('',#466,#397,#398);
#304=AXIS2_PLACEMENT_3D('',#467,#399,#400);
#305=DIRECTION('axis',(0.,0.,1.));
#306=DIRECTION('refdir',(1.,0.,0.));
#307=DIRECTION('center_axis',(1.,-8.02184266347656E-19,0.));
#308=DIRECTION('ref_axis',(0.,0.,-1.));
#309=DIRECTION('center_axis',(1.,-8.02184266347656E-19,0.));
#310=DIRECTION('ref_axis',(0.,1.,0.));
#311=DIRECTION('center_axis',(1.,-8.02184266347656E-19,0.));
#312=DIRECTION('ref_axis',(0.,1.,0.));
#313=DIRECTION('center_axis',(1.,-8.02184266347656E-19,0.));
#314=DIRECTION('ref_axis',(0.,1.,0.));
#315=DIRECTION('center_axis',(1.,-8.02184266347656E-19,0.));
#316=DIRECTION('ref_axis',(0.,1.,0.));
#317=DIRECTION('center_axis',(1.,-8.02184266347656E-19,0.));
#318=DIRECTION('ref_axis',(0.,0.,-1.));
#319=DIRECTION('center_axis',(1.,-8.02184266347656E-19,0.));
#320=DIRECTION('ref_axis',(0.,1.,0.));
#321=DIRECTION('center_axis',(1.,-8.02184266347656E-19,0.));
#322=DIRECTION('ref_axis',(0.,1.,0.));
#323=DIRECTION('center_axis',(1.,-8.02184266347656E-19,0.));
#324=DIRECTION('ref_axis',(0.,1.,0.));
#325=DIRECTION('center_axis',(1.,-8.02184266347656E-19,0.));
#326=DIRECTION('ref_axis',(0.,0.,-1.));
#327=DIRECTION('center_axis',(-1.,8.02184266347656E-19,0.));
#328=DIRECTION('ref_axis',(0.,0.,1.));
#329=DIRECTION('center_axis',(1.,-8.02184266347656E-19,0.));
#330=DIRECTION('ref_axis',(0.,1.,0.));
#331=DIRECTION('center_axis',(1.,-8.02184266347656E-19,0.));
#332=DIRECTION('ref_axis',(0.,1.,0.));
#333=DIRECTION('center_axis',(1.,-8.02184266347656E-19,0.));
#334=DIRECTION('ref_axis',(0.,1.,0.));
#335=DIRECTION('center_axis',(1.,-8.02184266347656E-19,0.));
#336=DIRECTION('ref_axis',(0.,1.,0.));
#337=DIRECTION('center_axis',(1.,-8.02184266347656E-19,0.));
#338=DIRECTION('ref_axis',(0.,1.,0.));
#339=DIRECTION('center_axis',(-1.,8.02184266347656E-19,0.));
#340=DIRECTION('ref_axis',(0.,0.,1.));
#341=DIRECTION('center_axis',(1.,-8.02184266347656E-19,0.));
#342=DIRECTION('ref_axis',(0.,1.,0.));
#343=DIRECTION('center_axis',(1.,-8.02184266347656E-19,0.));
#344=DIRECTION('ref_axis',(0.,1.,0.));
#345=DIRECTION('center_axis',(1.,-8.02184266347656E-19,0.));
#346=DIRECTION('ref_axis',(0.,1.,0.));
#347=DIRECTION('center_axis',(1.,-8.02184266347656E-19,0.));
#348=DIRECTION('ref_axis',(0.,1.,0.));
#349=DIRECTION('axis',(0.,0.,1.));
#350=DIRECTION('refdir',(1.,0.,0.));
#351=DIRECTION('center_axis',(-1.,0.,0.));
#352=DIRECTION('ref_axis',(0.,0.,1.));
#353=DIRECTION('center_axis',(1.,0.,0.));
#354=DIRECTION('ref_axis',(0.,1.,0.));
#355=DIRECTION('center_axis',(1.,0.,0.));
#356=DIRECTION('ref_axis',(0.,1.,0.));
#357=DIRECTION('center_axis',(1.,0.,0.));
#358=DIRECTION('ref_axis',(0.,1.,0.));
#359=DIRECTION('center_axis',(1.,0.,0.));
#360=DIRECTION('ref_axis',(0.,0.,-1.));
#361=DIRECTION('center_axis',(1.,0.,0.));
#362=DIRECTION('ref_axis',(0.,1.,0.));
#363=DIRECTION('center_axis',(1.,0.,0.));
#364=DIRECTION('ref_axis',(0.,1.,0.));
#365=DIRECTION('center_axis',(1.,0.,0.));
#366=DIRECTION('ref_axis',(0.,1.,0.));
#367=DIRECTION('center_axis',(1.,0.,0.));
#368=DIRECTION('ref_axis',(0.,0.,-1.));
#369=DIRECTION('center_axis',(1.,0.,0.));
#370=DIRECTION('ref_axis',(0.,1.,0.));
#371=DIRECTION('center_axis',(1.,0.,0.));
#372=DIRECTION('ref_axis',(0.,1.,0.));
#373=DIRECTION('center_axis',(1.,0.,0.));
#374=DIRECTION('ref_axis',(0.,1.,0.));
#375=DIRECTION('center_axis',(1.,0.,0.));
#376=DIRECTION('ref_axis',(0.,0.,-1.));
#377=DIRECTION('axis',(0.,0.,1.));
#378=DIRECTION('refdir',(1.,0.,0.));
#379=DIRECTION('center_axis',(-1.,-2.22540173005727E-16,0.));
#380=DIRECTION('ref_axis',(2.22540173005726E-16,-1.,0.));
#381=DIRECTION('center_axis',(1.,2.22540173005726E-16,0.));
#382=DIRECTION('ref_axis',(2.22540173005726E-16,-1.,0.));
#383=DIRECTION('center_axis',(-1.,-2.22540173005726E-16,0.));
#384=DIRECTION('ref_axis',(2.22540173005726E-16,-1.,0.));
#385=DIRECTION('center_axis',(1.,2.22540173005726E-16,0.));
#386=DIRECTION('ref_axis',(-2.22540173005726E-16,1.,0.));
#387=DIRECTION('center_axis',(1.,2.22540173005726E-16,0.));
#388=DIRECTION('ref_axis',(-2.22540173005726E-16,1.,0.));
#389=DIRECTION('center_axis',(1.,2.22540173005726E-16,0.));
#390=DIRECTION('ref_axis',(0.,0.,-1.));
#391=DIRECTION('center_axis',(-1.,-2.22540173005726E-16,0.));
#392=DIRECTION('ref_axis',(0.,0.,1.));
#393=DIRECTION('axis',(0.,0.,1.));
#394=DIRECTION('refdir',(1.,0.,0.));
#395=DIRECTION('',(0.,0.,1.));
#396=DIRECTION('',(1.,0.,0.));
#397=DIRECTION('',(0.,0.,1.));
#398=DIRECTION('',(1.,0.,0.));
#399=DIRECTION('',(0.,0.,1.));
#400=DIRECTION('',(1.,0.,0.));
#401=CARTESIAN_POINT('',(0.,0.,0.));
#402=CARTESIAN_POINT('Origin',(19.0638027730597,6.77662683190583E-7,0.));
#403=CARTESIAN_POINT('',(19.8138027730597,4.00000067766268,0.));
#404=CARTESIAN_POINT('Origin',(19.8138027730597,6.77662683314292E-7,0.));
#405=CARTESIAN_POINT('',(18.3138027730597,4.00000067766268,0.));
#406=CARTESIAN_POINT('Origin',(18.3138027730597,6.77662683315496E-7,0.));
#407=CARTESIAN_POINT('Origin',(21.9216671493287,6.77662683312601E-7,0.));
#408=CARTESIAN_POINT('',(24.0295315255978,4.00000067766268,0.));
#409=CARTESIAN_POINT('Origin',(24.0295315255978,6.77662683310911E-7,0.));
#410=CARTESIAN_POINT('Origin',(24.0295315255978,3.50000067766268,0.));
#411=CARTESIAN_POINT('',(24.0295315255978,3.00000067766268,0.));
#412=CARTESIAN_POINT('Origin',(24.0295315255978,6.77662683310911E-7,0.));
#413=CARTESIAN_POINT('Origin',(99.0295315255978,6.77662683250747E-7,0.));
#414=CARTESIAN_POINT('',(174.029531525598,3.0000006776627,0.));
#415=CARTESIAN_POINT('Origin',(174.029531525598,6.77662683190583E-7,0.));
#416=CARTESIAN_POINT('Origin',(174.029531525598,1.50000067766269,0.));
#417=CARTESIAN_POINT('Origin',(1.0295315255978,1.05000067766268,0.));
#418=CARTESIAN_POINT('',(1.0295315255978,2.10000067766268,0.));
#419=CARTESIAN_POINT('Origin',(1.0295315255978,6.77662683329361E-7,0.));
#420=CARTESIAN_POINT('Origin',(1.4045315255978,6.7766268332906E-7,0.));
#421=CARTESIAN_POINT('',(1.7795315255978,2.50000067766268,0.));
#422=CARTESIAN_POINT('Origin',(1.7795315255978,6.77662683328759E-7,0.));
#423=CARTESIAN_POINT('Origin',(4.9045315255978,6.77662683326252E-7,0.));
#424=CARTESIAN_POINT('',(8.0295315255978,2.50000067766268,0.));
#425=CARTESIAN_POINT('Origin',(8.0295315255978,6.77662683323746E-7,0.));
#426=CARTESIAN_POINT('Origin',(8.0295315255978,3.00000067766268,0.));
#427=CARTESIAN_POINT('',(8.0295315255978,3.50000067766268,0.));
#428=CARTESIAN_POINT('Origin',(8.0295315255978,6.77662683323746E-7,0.));
#429=CARTESIAN_POINT('Origin',(8.2795315255978,6.77662683323545E-7,0.));
#430=CARTESIAN_POINT('',(8.5295315255978,4.00000067766268,0.));
#431=CARTESIAN_POINT('Origin',(8.5295315255978,6.77662683323345E-7,0.));
#432=CARTESIAN_POINT('Origin',(13.4216671493287,6.7766268331942E-7,0.));
#433=CARTESIAN_POINT('',(0.,0.,0.));
#434=CARTESIAN_POINT('Origin',(4.49126244835701,4.81134752213147,0.));
#435=CARTESIAN_POINT('',(4.49126244835693,9.56134752236676,0.));
#436=CARTESIAN_POINT('Origin',(4.49126244835693,0.0613475223668129,0.));
#437=CARTESIAN_POINT('Origin',(6.49126244835696,0.0613475223668129,0.));
#438=CARTESIAN_POINT('',(8.49126244835695,9.56134752236676,0.));
#439=CARTESIAN_POINT('Origin',(8.49126244835695,0.0613475223668129,0.));
#440=CARTESIAN_POINT('Origin',(9.49126244835694,0.0613475223668125,0.));
#441=CARTESIAN_POINT('',(10.4912624483569,9.56134752236675,0.));
#442=CARTESIAN_POINT('Origin',(10.4912624483569,0.0613475223668129,0.));
#443=CARTESIAN_POINT('Origin',(121.491262448357,0.0613475223668129,0.));
#444=CARTESIAN_POINT('',(232.491262448357,9.56134752236677,0.));
#445=CARTESIAN_POINT('Origin',(232.491262448357,0.0613475223668129,0.));
#446=CARTESIAN_POINT('Origin',(233.491262448357,0.0613475223668125,0.));
#447=CARTESIAN_POINT('',(234.491262448357,9.56134752236681,0.));
#448=CARTESIAN_POINT('Origin',(234.491262448357,0.0613475223668129,0.));
#449=CARTESIAN_POINT('Origin',(236.491262448357,0.0613475223668129,0.));
#450=CARTESIAN_POINT('',(238.491262448357,9.56134752236681,0.));
#451=CARTESIAN_POINT('Origin',(238.491262448357,0.0613475223668129,0.));
#452=CARTESIAN_POINT('Origin',(238.491262448357,4.81134752236681,0.));
#453=CARTESIAN_POINT('',(0.,0.,0.));
#454=CARTESIAN_POINT('Origin',(6.75,1.50214616778865E-15,0.));
#455=CARTESIAN_POINT('',(6.5,2.5,3.06161699786838E-16));
#456=CARTESIAN_POINT('Origin',(6.5,1.44651112453722E-15,0.));
#457=CARTESIAN_POINT('',(7.,2.,-2.44929359829471E-16));
#458=CARTESIAN_POINT('Origin',(7.,1.55778121104009E-15,0.));
#459=CARTESIAN_POINT('Origin',(3.5,7.78890605520043E-16,0.));
#460=CARTESIAN_POINT('',(0.,2.5,0.));
#461=CARTESIAN_POINT('Origin',(1.11022302462516E-15,2.46519032881566E-31,
0.));
#462=CARTESIAN_POINT('Origin',(7.,1.25,0.));
#463=CARTESIAN_POINT('Origin',(0.,1.25,0.));
#464=CARTESIAN_POINT('',(0.,0.,0.));
#465=CARTESIAN_POINT('',(0.,0.,0.));
#466=CARTESIAN_POINT('',(19.5382690772408,-0.0613468447041296,0.));
#467=CARTESIAN_POINT('',(258.029531525598,6.77662683329361E-7,0.));
#468=UNCERTAINTY_MEASURE_WITH_UNIT(LENGTH_MEASURE(0.01),#478,
'DISTANCE_ACCURACY_VALUE',
'Maximum model space distance between geometric entities at asserted c
onnectivities');
#469=UNCERTAINTY_MEASURE_WITH_UNIT(LENGTH_MEASURE(0.01),#478,
'DISTANCE_ACCURACY_VALUE',
'Maximum model space distance between geometric entities at asserted c
onnectivities');
#470=UNCERTAINTY_MEASURE_WITH_UNIT(LENGTH_MEASURE(0.01),#478,
'DISTANCE_ACCURACY_VALUE',
'Maximum model space distance between geometric entities at asserted c
onnectivities');
#471=UNCERTAINTY_MEASURE_WITH_UNIT(LENGTH_MEASURE(0.01),#478,
'DISTANCE_ACCURACY_VALUE',
'Maximum model space distance between geometric entities at asserted c
onnectivities');
#472=UNCERTAINTY_MEASURE_WITH_UNIT(LENGTH_MEASURE(1.E-6),#478,
'DISTANCE_ACCURACY_VALUE',
'Maximum model space distance between geometric entities at asserted c
onnectivities');
#473=(
GEOMETRIC_REPRESENTATION_CONTEXT(3)
GLOBAL_UNCERTAINTY_ASSIGNED_CONTEXT((#468))
GLOBAL_UNIT_ASSIGNED_CONTEXT((#478,#481,#479))
REPRESENTATION_CONTEXT('','3D')
);
#474=(
GEOMETRIC_REPRESENTATION_CONTEXT(3)
GLOBAL_UNCERTAINTY_ASSIGNED_CONTEXT((#469))
GLOBAL_UNIT_ASSIGNED_CONTEXT((#478,#481,#479))
REPRESENTATION_CONTEXT('','3D')
);
#475=(
GEOMETRIC_REPRESENTATION_CONTEXT(3)
GLOBAL_UNCERTAINTY_ASSIGNED_CONTEXT((#470))
GLOBAL_UNIT_ASSIGNED_CONTEXT((#478,#481,#479))
REPRESENTATION_CONTEXT('','3D')
);
#476=(
GEOMETRIC_REPRESENTATION_CONTEXT(3)
GLOBAL_UNCERTAINTY_ASSIGNED_CONTEXT((#471))
GLOBAL_UNIT_ASSIGNED_CONTEXT((#478,#481,#479))
REPRESENTATION_CONTEXT('','3D')
);
#477=(
GEOMETRIC_REPRESENTATION_CONTEXT(3)
GLOBAL_UNCERTAINTY_ASSIGNED_CONTEXT((#472))
GLOBAL_UNIT_ASSIGNED_CONTEXT((#478,#481,#479))
REPRESENTATION_CONTEXT('','3D')
);
#478=(
LENGTH_UNIT()
NAMED_UNIT(*)
SI_UNIT(.MILLI.,.METRE.)
);
#479=(
NAMED_UNIT(*)
SI_UNIT($,.STERADIAN.)
SOLID_ANGLE_UNIT()
);
#480=DIMENSIONAL_EXPONENTS(0.,0.,0.,0.,0.,0.,0.);
#481=(
CONVERSION_BASED_UNIT('degree',#483)
NAMED_UNIT(#480)
PLANE_ANGLE_UNIT()
);
#482=(
NAMED_UNIT(*)
PLANE_ANGLE_UNIT()
SI_UNIT($,.RADIAN.)
);
#483=PLANE_ANGLE_MEASURE_WITH_UNIT(PLANE_ANGLE_MEASURE(0.01745329252),#482);
#484=SHAPE_DEFINITION_REPRESENTATION(#488,#495);
#485=SHAPE_DEFINITION_REPRESENTATION(#489,#496);
#486=SHAPE_DEFINITION_REPRESENTATION(#490,#497);
#487=SHAPE_DEFINITION_REPRESENTATION(#491,#498);
#488=PRODUCT_DEFINITION_SHAPE('',$,#500);
#489=PRODUCT_DEFINITION_SHAPE('',$,#501);
#490=PRODUCT_DEFINITION_SHAPE('',$,#502);
#491=PRODUCT_DEFINITION_SHAPE('',$,#503);
#492=PRODUCT_DEFINITION_SHAPE($,$,#20);
#493=PRODUCT_DEFINITION_SHAPE($,$,#21);
#494=PRODUCT_DEFINITION_SHAPE($,$,#22);
#495=SHAPE_REPRESENTATION('',(#257),#473);
#496=SHAPE_REPRESENTATION('',(#279),#474);
#497=SHAPE_REPRESENTATION('',(#293),#475);
#498=SHAPE_REPRESENTATION('',(#301,#302,#303,#304),#476);
#499=PRODUCT_DEFINITION_CONTEXT('part definition',#513,'design');
#500=PRODUCT_DEFINITION('ENG-007192','ENG-007192',#504,#499);
#501=PRODUCT_DEFINITION('ENG-002667','ENG-002667',#505,#499);
#502=PRODUCT_DEFINITION('GEW_-S-000005','GEW_-S-000005',#506,#499);
#503=PRODUCT_DEFINITION('Baugruppe1','Baugruppe1',#507,#499);
#504=PRODUCT_DEFINITION_FORMATION('',$,#515);
#505=PRODUCT_DEFINITION_FORMATION('',$,#516);
#506=PRODUCT_DEFINITION_FORMATION('',$,#517);
#507=PRODUCT_DEFINITION_FORMATION('',$,#518);
#508=PRODUCT_RELATED_PRODUCT_CATEGORY('ENG-007192','ENG-007192',(#515));
#509=PRODUCT_RELATED_PRODUCT_CATEGORY('ENG-002667','ENG-002667',(#516));
#510=PRODUCT_RELATED_PRODUCT_CATEGORY('GEW_-S-000005','GEW_-S-000005',(#517));
#511=PRODUCT_RELATED_PRODUCT_CATEGORY('Baugruppe1','Baugruppe1',(#518));
#512=APPLICATION_PROTOCOL_DEFINITION('international standard',
'automotive_design',2009,#513);
#513=APPLICATION_CONTEXT(
'Core Data for Automotive Mechanical Design Process');
#514=PRODUCT_CONTEXT('part definition',#513,'mechanical');
#515=PRODUCT('ENG-007192','ENG-007192',$,(#514));
#516=PRODUCT('ENG-002667','ENG-002667',$,(#514));
#517=PRODUCT('GEW_-S-000005','GEW_-S-000005',$,(#514));
#518=PRODUCT('Baugruppe1','Baugruppe1',$,(#514));
#519=PRESENTATION_STYLE_ASSIGNMENT((#522));
#520=PRESENTATION_STYLE_ASSIGNMENT((#523));
#521=PRESENTATION_STYLE_ASSIGNMENT((#524));
#522=SURFACE_STYLE_USAGE(.BOTH.,#525);
#523=SURFACE_STYLE_USAGE(.BOTH.,#526);
#524=SURFACE_STYLE_USAGE(.BOTH.,#527);
#525=SURFACE_SIDE_STYLE('',(#528));
#526=SURFACE_SIDE_STYLE('',(#529));
#527=SURFACE_SIDE_STYLE('',(#530));
#528=SURFACE_STYLE_FILL_AREA(#531);
#529=SURFACE_STYLE_FILL_AREA(#532);
#530=SURFACE_STYLE_FILL_AREA(#533);
#531=FILL_AREA_STYLE('',(#534));
#532=FILL_AREA_STYLE('',(#535));
#533=FILL_AREA_STYLE('',(#536));
#534=FILL_AREA_STYLE_COLOUR('',#537);
#535=FILL_AREA_STYLE_COLOUR('',#538);
#536=FILL_AREA_STYLE_COLOUR('',#539);
#537=COLOUR_RGB('',0.752941176470588,0.752941176470588,0.752941176470588);
#538=COLOUR_RGB('',0.63921568627451,0.63921568627451,0.686274509803922);
#539=COLOUR_RGB('',0.32156862745098,0.32156862745098,0.32156862745098);
ENDSEC;
END-ISO-10303-21;
